Big foot mama - Rola se

Discussion in 'Ugotavljamo tablature' started by zmavcic, Jan 14, 2011.

  1. zmavcic

    zmavcic New Member

    Pozdrav,
    rabil bi tablature za uvod naslednje pesemi: http://www.youtube.com/watch?v=G-ZqKdELw-4
    Sem jo Ĺže poskusil narediti sam in bi prosil, če mi nekdo pove če se mu zdi pravilna oziroma mi jo poprav:
    [TAB]----------------------------
    ----------------------------
    ----------------------------
    -------------5--------------
    ---5h7-7-5-7---5-7----------
    ----------------------------
    [/TAB]
    Hvala, lep pozdrav.
     
  2. zmavcic

    zmavcic New Member

    Sem si popravil sam. Da neboste se sami matral:
    [TAB]
    ----------------------------

    ----------------------------

    ----------------------------

    ------------5---------------

    -----7-5-7-----5-7-5------

    -0--------------------------
    [/TAB]
     
    Last edited: Jan 17, 2011
  3. uros123

    uros123 New Member

    Kaj pa naprej, kako gredo tisti vmesni solčki? Od tega rifa naprej?
     

Share This Page