COTO, JAN in MODRIJANI - En poljub

Discussion in 'Ugotavljamo tablature' started by vselic, Jan 6, 2014.

  1. vselic

    vselic New Member

  2. NoMAD

    NoMAD Administrator Staff Member

    Spiši besedilo, da bo kam za nadpisat: E, H, H7, A in C#m

    V uvodu gredo pa akordi takole nekako: C#m G#m A G#m F#m E H7 E
     
  3. vselic

    vselic New Member

    Evo nekaj sem že sam ugotavljal...
    Torej uvod:
    Code:
                                           E                      E ( celoten akord )
    e|----9--7-----------5--4---------2--|---------|-------0--|---0--|
    B|--9------7-------5------4-----2----|-------0-|----0-----|---0--|
    G|9----------8--6----------4--2------|----1----|-2--------|---1--|
    D|-----------------------------------|--2------|----------|---2--|
    A|--------------------------------------------------------|---2--|
    E|--------------------------------------------------------|---0--|
    Naprej pa potem če vi veste kako gre po besedilu:

    Sam' en poljub mi dej v slovo,
    ker mi je res res hudo,
    sam' en poljub dej ta večer,
    da zaspal bo moj nemir.

    Čakal sem trenutke s tabo,
    in prosil od neba zaklad,
    hotel sem te vzeti s sabo,
    tja kjer sem sanjal lepše življenje,
    ko sem bil mlad.

    Sam' en poljub mi dej v slovo,
    ker mi je res hudo,
    sam' en poljub dej ta večer,
    da zaspal bo moj nemir.

    Težka leta so za tabo,
    vem nočeš gledati nazaj,
    jaz bi peljal te v spomine,
    ti pa zdaj gledaš bele oblake,
    sanjaš svoj dan.

    Sam' en poljub mi dej v slovo
    ker mi je res hudo,
    sam' en poljub dej ta večer,
    da zaspal bo moj nemir.

    Š el bom brez tebe,
    šel bom, sebe iskat',
    bil sem nor, bil sem mlad in verjel sem u ta svet,
    takrat.

    Sam' en poljub mi dej v slovo,
    ker mi je res hudo,
    sam' en poljub dej ta večer,
    da zaspal bo moj nemir.
     
    Last edited by a moderator: Jun 29, 2016
  4. NoMAD

    NoMAD Administrator Staff Member

  5. vselic

    vselic New Member

    Se opravičujem, bom naslednjič previdnejši.
     
  6. NoMAD

    NoMAD Administrator Staff Member

    Mogoče bi še kdo kaj dopolnil ali popravil. Predvsem zato ker se mi dozdeva, da bo tole precej klikan zapis ko bo enkrat naložen v dolpoteg, bom še malo prespal preden gre v Dolpoteg.
    Code:
       C#m     H       A       G#m     F#m     E       Esus4    E
    e|-----9-|-7-----|-----5-|-4-----|-----2-|-------|-----0-|--0--|
    H|---9---|---7---|---5---|---4---|---2---|-----0-|---0---|--0--|
    G|-9-----|-----8-|-6-----|-----4-|-2-----|---1---|-2-----|--1--|
    D|-------|-------|-------|-------|-------|-2-----|-------|--2--|
    A|-------|-------|-------|-------|-------|-------|-------|--2--|
    E|-------|-------|-------|-------|-------|-------|-------|--0--|
    
    
        E                          H
       Sam' en poljub mi dej v slovo
                            E Esus E
       ker mi je res res hudo
                                H
       sam' en poljub dej ta večer
              A      H     E Esus E
       da zaspal bo moj nemir.
    
    
                          A
    Čakal sem trenutke s tabo
         E                H   C#m  H
    in prosil od neba zaklad ...
    E                    A
    hotel sem te vzeti s sabo
                  E                 H7
    tja kjer sem sanjal lepše življenje
                 E Esus E
    ko sem bil mlad
    
    ...
             H            E
            Š el bom brez tebe,
             H               E
            šel bom, sebe iskat',
                     C#m           H
            bil sem nor, bil sem mlad
                   A             H       E
            in verjel sem u ta svet, takrat.
    
    
    

    E se v verzu končuje z Esus4 okraskom... torej enako kot so zadni trije takti v uvodu.
    Podoben okrasek je ko zaključuje s H... a tam samo vmes odbrenka tri tone iz C#m akorda.
    Več al manj je to to.
     
    Last edited: Dec 3, 2016
  7. NoMAD

    NoMAD Administrator Staff Member

    Last edited: Jan 23, 2017

Share This Page