Flirt - Romeo in Julija

Discussion in 'Ugotavljamo tablature' started by r.kapot, Mar 12, 2013.

  1. r.kapot

    r.kapot New Member

    Pozdravljeni.
    Prosil bi, če bi lahko kdo napisal tablaturo od pesmi Romeo in Julija od skupine Flirt.
    Zanima me tisto katero pride vmes, vem da ni težko vendar mi ne uspe in ne uspe ugotoviti.



    ROMEO IN JULIJA
    Code:
    Flirt
    C G a F -2x
    
    C G a F
    Sama si v sobi, pozno je,
    C G a F
    Za mene in za tebe, ti vseeno je.
    C G a F C
    Nisem Romeo in ti nisi moja Julija,
    C G a F
    Ostala mi je bluza, tvoja bluza vonja cimeta.
    
    C G a F -2x
    
    C G a F
    Upam, da me čakaš, ko se noč spusti,
    C G a F
    Ker je nekdo, ki čaka, nekdo, ki ne zaspi.
    C G a F C
    Pisma ti ne pišem, ne ne pošiljam ti rad svojih slik.
    C G a F G
    Rad bi le da veš, da ob tebi bi se rad zbudil.
    
    F G C
    Nisem Romeo in nisi Julija,
    F G C
    Če je kje Bog naj stopi dol z neba.
    F G C F
    Naj odkrije in razbije še tvoj del sveta,
    F G C
    Ubila si mi, del srca.
     
    Last edited by a moderator: Feb 10, 2017
  2. mondxxi

    mondxxi Super Moderator Staff Member

    Code:
    E   E  E   E   E  E   E   E     E   E  E   E   E  E   E   E 
    E||--------------------------------|-------------------------------|
    H||--------------------------------|-------------------------------|
    G||------12---------12-------------|-----12---------12-------------|
    D||--10---------10---------10--12--|------------12---------12--10--|
    A||--------------------------------|-------------------------------|
    E||--------------------------------|-------------------------------|
      E   E  E   E   E  E   E   E     E   E  E   E   E   E   Q    
    -------------------------------|------------------------------||
    ---------------------------10--|------------------------------||
    -----12---------12-------------|----------------14--14--12----||
    ------------10---------10------|-----12-----12----------------||
    -------------------------------|------------------------------||
    -------------------------------|------------------------------||
    
    Q - quarter
    E - 8th
    
    
     
    Last edited by a moderator: Feb 10, 2017
  3. NoMAD

    NoMAD Administrator Staff Member

Share This Page