Iztok Mlakar - Pokora

Discussion in 'Ugotavljamo akorde' started by kurci2, Oct 11, 2013.

  1. kurci2

    kurci2 New Member

  2. NoMAD

    NoMAD Administrator Staff Member

    Na začetku voham enega al dva visokooktanska E-ja... pa pol F#, A# pa nazaj na E...
    najbrž v nadaljevanju naniza še kak akord ... le kdo bo to spisal ? ... :42: :whistling:
     
  3. mondxxi

    mondxxi Super Moderator Staff Member

    Tole bo izgleda počakal name. Enkrat, ko bom mel "dan"... in se mi bo dal...
     
  4. mondxxi

    mondxxi Super Moderator Staff Member

    Za začetek en tab uvoda:

    Code:
    [FONT=courier new]     E           Esus4 E                       Eadd9 E         
            
    E||-----------4--5-----4--------|-----------0--2-----0--------|
    H||--------5--------------5-----|--------0--------------0-----|
    G||-----4--------------------4--|-----1--------------------1--|
    D||-----------------------------|-----------------------------|
    A||-----------------------------|-----------------------------|
    E||--0--------------------------|--0--------------------------|[/FONT]
    [FONT=courier new]
      F#m          H7sus4             Esus4          E          
             
    ---------2---------------0-----|-----------0-----0--------||
    ---------2---------------0-----|-----------0-----0--------||
    ------2-----2---------2-----2--|--------2-----2--1--------||
    -------------------------------|--------------------------||
    ---------------2---------------|--------------------------||
    --2----------------------------|--0-----------------------||
    [/FONT]
    
    Kasnej pa naprej...
     
  5. dimc

    dimc New Member

    Tale pokora bi bila za nadaljevat, bi se kdo lotil? :)
     
  6. mondxxi

    mondxxi Super Moderator Staff Member

    @dimc, lepo da si (me) spomnil. Sem čakal kurci2, če bo sprejel pomoč in nadaljeval. No sedem let je res veliko časa za čakat. Če je ponovno zanimanje, bom pač napisal nadaljevanje zgornjega TAB-a uvoda, ko bo čas in volja.
     
    LiMuBai likes this.
  7. mondxxi

    mondxxi Super Moderator Staff Member

    Evo nekaj sem spisal, uvod in prvo kitico. Po večini se vse ostalo več ali manj podobno ponavlja. Če najdete kakšno napako pa kar na dan z besedo.

    Code:
    E|-------------4---5---4-----------|-------------0---2---0-----------|---------2---------------0-------|
    B|---------5---------------5-------|---------0---------------0-------|---------2---------------0-------|
    G|-----4-----------------------4---|-----1-----------------------1---|-----2-------2-------2-------2---|
    D|---------------------------------|---------------------------------|---------------------------------|
    A|---------------------------------|---------------------------------|-----------------2---------------|
    E|-0-------------------------------|-0-------------------------------|-2-------------------------------|
    
    
    E|---------0-------0-----|-------------4---5---4-----------|-------------0---2---0-----------|
    B|---------0-------0-----|---------5---------------5-------|---------0---------------0-------|
    G|-----2-------2---1-----|-----4-----------------------4---|-----1-----------------------1---|
    D|-----------------------|---------------------------------|---------------------------------|
    A|-----------------------|---------------------------------|---------------------------------|
    E|-0---------------------|-0-------------------------------|-0-------------------------------|
    
    
    E|---------4---------------0-------|-----------------2-----|-----------------2------------|
    B|---------5---------------0-------|-------------0---------|-------------2-------2--------|
    G|-----4-------4-------1-------1---|---------2-------------|---------2---------------2----|
    D|---------------------------------|-----1-----------------|-----4------------------------|
    A|---------------------------------|-2---------------------|------------------------------|
    E|-0---------------0---------------|-----------------------|-2----------------------------|
    
    
    E|-----------------2------------|---------2---------------0-------|---------0-------0---------------|
    B|-------------0-------0--------|---------2---------------0-------|---------0-------0-------0-------|
    G|---------2---------------2----|-----2-------2-------2-------2---|-----2-------2-------1-------1---|
    D|-----1------------------------|---------------------------------|---------------------------------|
    A|-2----------------------------|-----------------2---------------|---------------------------------|
    E|------------------------------|-2-------------------------------|-0-------------------------------|
    
    
    E|---------4-------4-------4-------|---------4-------4-------4-------|---------4-------4-------4-------|
    B|---------5-------5-------5-------|---------4-------4-------4-------|---------3-------3-------3-------|
    G|-----4-------4-------4-------4---|-----4-------4-------4-------4---|-----4-------4-------4-------4---|
    D|---------------------------------|---------------------------------|---------------------------------|
    A|---------------------------------|---------------------------------|---------------------------------|
    E|-0-------------------------------|-0-------------------------------|-0-------------------------------|
    
    
    E|-----------------2-----|---------2-------2-------2-------|---------4-----------------------|
    B|-------------2---------|---------1-------1-------1-------|---------5-------5-------5-------|
    G|---------2-------------|-----2-------2-------2-------2---|-----4-------4-------4-------4---|
    D|-----2-----------------|---------------------------------|---------------------------------|
    A|-0---------------------|-0-------------------------------|---------------------------------|
    E|-----------------------|---------------------------------|-0-------------------------------|
    
    
    E|---------2---------------2-------|-----------------2-----|
    B|---------2---------------2-------|-------------0---------|
    G|-----2-------2-------2-------2---|---------2-------------|
    D|---------------------------------|-----1-----------------|
    A|-----------------4---------------|-2---------------------|
    E|-2-------------------------------|-----------------------|
    
     
    LiMuBai likes this.
  8. dimc

    dimc New Member

    Super, če bi prej videl, bi se je prej lotil tako pa se je danes, hvala mondxxi
     

Share This Page