Iztok Mlakar - Pokora

Discussion in 'Ugotavljamo akorde' started by kurci2, Oct 11, 2013.

  1. kurci2

    kurci2 New Member

  2. NoMAD

    NoMAD Administrator Staff Member

    Na začetku voham enega al dva visokooktanska E-ja... pa pol F#, A# pa nazaj na E...
    najbrž v nadaljevanju naniza še kak akord ... le kdo bo to spisal ? ... :42: :whistling:
     
  3. mondxxi

    mondxxi Super Moderator Staff Member

    Tole bo izgleda počakal name. Enkrat, ko bom mel "dan"... in se mi bo dal...
     
  4. mondxxi

    mondxxi Super Moderator Staff Member

    Za začetek en tab uvoda:

    Code:
    [FONT=courier new]     E           Esus4 E                       Eadd9 E         
            
    E||-----------4--5-----4--------|-----------0--2-----0--------|
    H||--------5--------------5-----|--------0--------------0-----|
    G||-----4--------------------4--|-----1--------------------1--|
    D||-----------------------------|-----------------------------|
    A||-----------------------------|-----------------------------|
    E||--0--------------------------|--0--------------------------|[/FONT]
    [FONT=courier new]
      F#m          H7sus4             Esus4          E          
             
    ---------2---------------0-----|-----------0-----0--------||
    ---------2---------------0-----|-----------0-----0--------||
    ------2-----2---------2-----2--|--------2-----2--1--------||
    -------------------------------|--------------------------||
    ---------------2---------------|--------------------------||
    --2----------------------------|--0-----------------------||
    [/FONT]
    
    Kasnej pa naprej...
     
  5. dimc

    dimc New Member

    Tale pokora bi bila za nadaljevat, bi se kdo lotil? :)
     

Share This Page