Leteči odred - Sanjao sam svoju ružicu

Discussion in 'Ugotavljamo akorde' started by .knofla., Mar 28, 2007.

  1. .knofla.

    .knofla. Guest

    Cau!
    Prosim kdorkol ce ma akorde za sanjao sam svoju ružicu...prebrskala sm vse možne strani in karkol in nism našla...lepo prosim:D
    A bi mi lahko poslal na email:urskfurlan@email.si
     
    Last edited by a moderator: Apr 5, 2007
  2. NoMAD

    NoMAD Administrator Staff Member

    Na 2akordi.net majo kar 5 verzij... seveda če si misliš na "Leteči odred" ...

    Komada ne poznam...

    Code:
      ***VERZIJA 1************************************
    
    
    Transkripcija: Mario Dautovic
    
    
    / solo F#m-D-A-C# /
     
    F#m        D        A C# 
    sanjao sam moju ruzicu 
    F#m       D          A C# 
    palila me je k’o sibicu 
    F#m        D          A         E 
    sanjao sam ruke njene da je sad pored mene 
    F#m           C#           F#m C# 
    gorio bih kao vatra olimpijska 
    
    pisao sam mojoj ruzici 
    a u pismu marke dolari 
    dao bi joj sve najbolje samo nek je dobre volje 
    ( E )
    ne bi vise tuzan bio ja
     
         A      E 
    pjevali smo stare pjesme 
    F#m      C# 
    radili i sto se ne smije 
    D         E         A E 
    ali nikad nismo varali 
    
         A      E 
    voljeli smo staro mjesto 
    F#m      C# 
    odlazili tamo cesto 
    D             E           A ( C# ) 
    gdje smo prvi put se ljubili 
    
    / uvodni solo /
     
    sanjao sam miris kestena 
    na papiru tajna pisana 
    sanjao sam miris zime a na usni njeno ime 
    nikad vise necu reci ja 
    
    jer pisala je meni ruzica 
    mogu ja bez tvojih dolara 
    ma trebaju mi ruke radi da me griju kad zahladi 
    udala se moja ruzica 
    
    / refren 1x /
    / solo / 
    / refren 2x prvi put tiho svirati / 
    
    ***VERZIJA 2************************************
     Poslao: Mladen
    
    
    Intro-riff:
     |------------------------------------|
     |------------------------------------|
     |/11~---11~----/9~---9~--------------|        
     |------------11-----------12p11-11~--|
     |------------------------------------|
     |------------------------------------|
    
    Solo:
     |--------------------------------------------|
     |--------------------------------------------|
     |-----14--13-11--11/13~--11--13-14-----------|
     |-/11-------------------------------11~------|
     |--------------------------------------------|
     |--------------------------------------------|
    
     |--------------------------------------------|
     |--------------------------------------------|
     |-----14--13-11--11/13~--11--13-14---14~-----|
     |-/11----------------------------------------|
     |--------------------------------------------|
     |--------------------------------------------|
    
     |--------------------------------------------|
     |--------------------------------------------|
     |-----14--13-11--11/13~--11--13-14~----------|
     |--11----------------------------------------|
     |--------------------------------------------|
     |--------------------------------------------|
    
     |--------------------------------|
     |-14-14-12-14---16b17---15-14-12-|
     |--------------------------------|
     |--------------------------------|
     |--------------------------------|
     |--------------------------------|
    
     |-----------------------------------------------------------|
     |-----------------------------------------------------------|
     |-11~---11~---13-11~---10---10---11--13---11~-------9~------|
     |-----------------------------------------------------------|
     |-----------------------------------------------------------|
     |-----------------------------------------------------------|
    
    end-riff:
     |--------------------------------------------|
     |--------------------------------------------|
     |-----14--13p11--/10~--10~--11h13----11~-----|
     |-/11----------------------------------------|
     |--------------------------------------------|
     |--------------------------------------------|
    
    
    akordi:
    =======
    
     f#                D           A C#   f#        D     A
    Sanjao sam moju ruzicu, palila me je ko sibicu
     f#               D              A                E
    sanjao sam ruke njene da je sada pored mene
     D                C#            f#      C# 
    gorio bi kao vatra olimpiska.
     
    Pisao sam mojoj ruzici, a u pismu marke dolari
    dao bi joj sve naj bolje samo nek je dobre volje 
                                f#    E
    ne bi vise tuzan bio ja. 
     
     A                E                f#       C#         
    Pjevali smo stare pjesme radili i sto se ne smije 
     D           E           A    
    ali nikad nismo varali. 
     
    Voljeli smo staro mjesto odlazili tamo cesto gdje 
    smo prvi put se ljubili. 
     
    Sanjao sam miris kestena, na papiru tajna pisana
    sanjao sam miris zime a na usni njeno ime 
    nikad vise necu reci ja.
     
    Jer pisala je meni ruzica, mogu ja bez tvojih dolara
    ma trebaju mi ruke radi da me griju da zahladi 
    udala se moja ruzica.
     
    ref.
    
    
     ***VERZIJA 3************************************
     Transkripcija: Xman
    
    -------------------------------------------------------
    -------------------------------------------------------
    --11-11---------------------11-11----------------------
    --------11-14-14-12-11------------11-14-14-12-11-------
    -------------------------------------------------------
    -------------------------------------------------------
    
    Sanjao sam moju ruzicu , palila me je ko sibicu
    Sanjao sam ruke njene , da je sada pored mene
    Gorio bi kao vatra olimpijska
    
    C#5 
    F#5       D5    A5    C#5  F#5       D5      A5    C#5
    pisao sam mojoj ruzici     a u pismu marke dolari
    F#5        D5            A           E
    dao bi joj sve najbolje samo nek je dobre volje
    F#5         C#5     F#5   
    ne bi vise tuzan bio ja
    
    C#5 
         A5       E5            F#5     C#5
    Pjevali smo stare pjesme , radili i sto se ne smje 
    D5        E5        A5    E5
    ali nikad nismo varali
    
    voljeli smo staro mjesto , odlazili tamo cesto
    
    gdje smo prvi put se ljubili
    
    -------------------------------------------------------
    -------------------------------------------------------
    --11-11---------------------11-11----------------------
    --------11-14-14-12-11------------11-14-14-12-11-------
    -------------------------------------------------------
    -------------------------------------------------------
    
    sanjao sam miris kestena
    na papiru tajna pisana
    sanjao sam miris zime a na usni njeno ime
    nikad vise necu reci ja
    
    jer pisala je meni ruzica
    mogu ja bez tvojih dolara
    ma trebaju mi ruke radi da me griju kad zahladi
    udala se moja ruzica
    
    -------------------------------------------------------------
    -------------------------------------------------------------
    ----14-13-11-13-11-13-14---------14-13-11-13-11-13-14~(16)~14
    -11----------------------11---11-----------------------------
    -------------------------------------------------------------
    -------------------------------------------------------------
    
    ---------------------------------------12----------------------
    ---------------------------14-14-12-14----15-14-12-------------
    -----14-13-11-13-11-13-14--------------------------------------
    -11------------------------------------------------------------
    ---------------------------------------------------------------
    ---------------------------------------------------------------
    
    ---------------------------------------------------------------
    ---------------------------------------------------------------
    -------13-11-10-10-11-13-11-S9---------------------------------SLIDE
    -11-11---------------------------------------------------------
    ---------------------------------------------------------------
    ---------------------------------------------------------------
    
    Refren 2x
    
    C#5 
         A5       E5            F#5     C#5
    Pjevali smo stare pjesme , radili i sto se ne smje 
    D5        E5        A5    E5
    ali nikad nismo varali
    
    voljeli smo staro mjesto , odlazili tamo cesto
    
    gdje smo prvi put se ljubili
    
    --------------------------------------------------------------
    --------------------------------------------------------------
    ----14-13-11-10-10-11-13-11-----------------------------------
    -11-----------------------------------------------------------
    --------------------------------------------------------------
    --------------------------------------------------------------
    
    F#5-F# mol
    ostalo su cisti durovi
    
    
     
    ker ne gre vse stlačt sem not bom dal ostali dve verziji v naslednjo temo...
     
    Last edited: Mar 28, 2007
  3. NoMAD

    NoMAD Administrator Staff Member

    nadaljevanje :
    ***VERZIJA 4************************************
    Code:
     Transkripcija: NesoT (nebby@volja.net)
    
    Intro: F#m / E / A / C#7 / F#m / E / A / C#7
    
    F#m       E         A  C#7  F#m       E          A   C#7
    Sanjao sam moju ruzicu       palila me je ko sibicu
    F#m       D          A           E          F#m           C#7        F#m   C#7
    sanjao sam ruke njene   da je sada pored mene     gorio bi kao vatra olimpijska
    
    Pisao sam mojoj Ruzici a u pismu marke dolari
    dao bih joj sve najbolje samo nek je dobre volje ne bi vise tuzan bio ja
    
                  A     E            F#m          C#7
    REF:    Pjevali smo stare pjesme     radili i sto se ne sme 
            D      E         A   E7
            ali nikad nismo varali
    
                  A     E             F#m          C#7    
            Voljeli smo staro mjesto     odlazili tamo cesto
            D           E            A  C#7
            Gdje smo prvi put se ljubili
    
    Intro: 1x
    
    Sanjao sam miris kestenja na papiru tajna pisana
    sanjao sam miris zime a na usni njeno ime nikad vise necu reci ja
    jer pisala je meni Ruzica mogu ja bez tvojih dolara
    ma trebaju mi ruke radi da me griju kad zahladi udala se moja Ruzica.
    
    Ref. 3x i na kraju jos:
    
        D             E            A  C#7     F#m C#7 F#m
    ... gdje smo prvi put se ljubili.
    
    Op. Akordi u strofama i refrenu ostaju na istim (analognim) mjestima.
    
    
    
       ***VERZIJA 5************************************
     Transkripcija: Ivica - Yam@rock.com
    
    
       F#m    -     D   -    A  -  C#
    E|-------------------------
    H|-------------------------
    G|-~11-~11--~6--9--9--7--6-  / 2x
    D|-------------------------
    A|-------------------------
    E|-------------------------
    
    F#m        D        A   C#  F#m       D         A   C#
    Sanjao sam moju ruzicu,     palila me je ko sibicu.
    F#m        D          A           E           F#m          C#    F#m        - C#
    Sanjao sam ruke njene, da je sada pored mene, gorio bi kao vatra olimpijska.
    F#m       D         A   C#  F#m       D         A   C#
    Pisao sam mojoj ruzici,     a u pismu marke dolari.
    F#m        D             A            E            F#m        C#        F#m - E7
    Dao bi joj sve naj bolje, samo nek je dobre volje, ne bi vise tuzan bio ja.
    
    
         A      E             F#m      C#
    Pjevali smo stare pjesme, radili i sto se ne smije,
     D        E7        A  - E
    ali nikad nismo varali.
         A      E7           F#m      C#
    Voljeli smo staro mjesto odlazili tamo cesto
     D        E7              A  - C#
    gdje smo prvi put se ljubili.
    
    
       F#m    -     D   -    A  -  C#
    E|-------------------------
    H|-------------------------
    G|-~11-~11--~6--9--9--7--6-  / 2x
    D|-------------------------
    A|-------------------------
    E|-------------------------
    
    
    F#m        D          A    C#  F#m       D         A   C#
    Sanjao sam miris kestena,      na papiru tajna pisana.
    F#m        D          A          E          F#m        C#        F#m    -   C#
    Sanjao sam miris zime, a na usni njeno ime, nikad vise necu reci ja.
    F#m           D        A   C#  F#m         D          A   C#
    Jer pisala je meni ruzica,     mogu ja bez tvojih dolara.
    F#m           D          A           E            F#m      C#       F#m -   E7
    Ma trebaju mi ruke radi, da me griju kad zahladi, udala se moja ruzica.
    
    
         A      E
    Pjevali smo stare pjesme ...
    
    E|---------------------------------------|---------------------------------------|
    H|---------------------------------------|---------------------------------------|
    G|-----14--13-11--11/13~--11--13-14------|-----14--13-11--11/13~--11--13-14--14~-|
    D|-/11-------------------------------11~-|-/11-----------------------------------|
    A|---------------------------------------|---------------------------------------|
    E|---------------------------------------|---------------------------------------|
    
    E|-----------------------------------------12-10------------------------------------|
    H|----------------------------14-14--12-14-14-12-14-12------------------------------|
    G|-----14--13-11-13-11-13-14--14-14--13-14-------14-13--11—11-13-11-10-10-11-13-11--|
    D|-/11------------------------------------------------------------------------------|
    A|----------------------------------------------------------------------------------|
    E|----------------------------------------------------------------------------------|
    
         A      E                       G|----14--13p11--/10~--10~--11h13--11~-|
    Pjevali smo stare pjesme ... / 2x   D|-/11---------------------------------|
    
    
    
     
    V dolpotegu se je znašla tudi GP datoteka: Sanjao sam moju ružicu:lock:
     
    Last edited: Mar 28, 2007

Share This Page