Pankrti - Osmi dan

Discussion in 'Ugotavljamo tablature' started by BeDuIn, Apr 10, 2013.

  1. BeDuIn

    BeDuIn New Member

    Pozdravljeni

    Rad bi se naučil solo pesmi Osmi dan od Pankrtov. Ker akorde za to pesem že imate besedila ne bom prilagal :)

    [video=youtube;lqlRLpadZuw]http://www.youtube.com/watch?v=lqlRLpadZuw[/video] (solo začne pri 3:37)

    Nekaj sem poskušal že sam, ampak, ker se hitro izgubim, sem se odločil za pomoč kakšne dobre vile :)

    E|-----------------------
    B|-----------------------
    G|-----7--9---7----------
    D|-7s9----------9--7--5--
    A|------------------------
    E|------------------------

    Hvala
     
  2. BeDuIn

    BeDuIn New Member

    Zdravo,

    nekako mi je uspelo spisat tablaturo za cel solo, vendar pa nisem prepričan če je dober. Zanima me, če ga lahko kakšna dobra vila pregleda in popravi napake. Spodaj je še besedilo z akordi

    Hvala

    Solo:
    [TAB]
    E|-----------------------------------------------------------------------------------------------------------------------------------------------13--15--13---------------
    B|-------------------------------------------------------------------------------------------------------------------------------------12s15------------------15--15--15--
    G|---------7--9---7---------------------7--7--7--7s9---9-9-------------7-9----7---------------------7--7--7-----7s9-9-9---------------------------------------------------
    D|-7s9--------------9--7--5-----7s9---9--9--9-------------------7s9----------------9-7---5--7s9---9--9--9-----------------------------------------------------------------
    A|------------------------------------------------------------------------------------------------------------------------------------------------------------------------
    E|------------------------------------------------------------------------------------------------------------------------------------------------------------------------
    [/TAB]

    Prvi dan je reku nej bo nebo in nej bo zemlja
    a bla sta oba pusta in lačna veselja.
    Drugi dan ustvaru je oblok sred voda
    in loču vode kopna in vode neba.
    Tretji dan je loču kopno in morje
    in na kopnem je pognala solata in je cvetelo polje.
    Čertrti dan je ustvaru luči na nebu
    da bi lažje gledu kar je naredu.
    Peti dan je reku nej bodo ribe in ptice
    da bo vesel u vodi in v zraku veselice.
    Š esti dan je ustvaru bitja zemeljska
    in njihovga gospodarja - človeka.
    Sedmi dan je dokončal svoje delo
    in kmal se mu je dolgcajt zazdelo.

    A E A E A
    Zato je osmi dan ustvaru rock
    E D E A
    ja, osmi dan je bog ustvaru rock.

    A E D A
    Od takrat je v nebesih velika fešta
    D A E
    na zabavah zmeri teži prideš do mesta.

    Zdej Adam in Eva vrtita božja kolesa
    Kajnu in Ablu se od dobrih zvokov meša.
    Lotova žena se v ritmu ziba
    Noe s sinovi striktno orto šiba.

    Zato je osmi dan ustvaru rock
    ja, osmi dan je bog ustvaru rock.

    Abraham žrtvuje ves svoj cajt za sceno
    Jakovu in Ezavu je že dolg vseeno.
    Jožef je po imidžu znan daleč naokrog
    skoz Mojzesova usta sam bog prepeva rock.
    Mariji se prikazujejo naga telesa
    še Judež Iškarjot je vzlubu nebesa.

    Zato je osmi dan ustvaru rock
    ja, osmi dan je bog ustvaru rock.
     
  3. NoMAD

    NoMAD Administrator Staff Member

    Upam da bo tvoj trud skorigirala kaka dobra vila - jaz to nisem... sem ti sam mal tvoj špaget uredil in postavil v [tab] tage... (najdeš jih v naprednem načinu)
     

Share This Page