Salecan

Discussion in 'Ekshibicionisti' started by Salecan, Dec 11, 2007.

  1. Salecan

    Salecan Senior Member

    sori my bad. narobe sm napisu :D

    po unem 12 polju je še 10 polje na isti struni.
     
  2. zmavcic

    zmavcic New Member

    Men so tut ful ušeč tvoji posnetki.
    Pa bi blo dobr če bi se eno pesm celo nauču pa jo posneu.
     
  3. SeLoTeJp

    SeLoTeJp Senior Member

  4. Salecan

    Salecan Senior Member

    uredu. pa vidim da sm še eno napaku u tabsih nardiu. tam ko bendaš 12 struno pa pol nej bi z meziuncem primu 15 na spodnjih strunah..
    ne primeš 15. ampak 13. se opravičujem :)

    drugače pa vredu. parkrat se ti je zataknilo ampak kul :D
     
  5. SeLoTeJp

    SeLoTeJp Senior Member

    Ja madona, glej da res :) Bom še enkrat posnel..
     
  6. partyboy

    partyboy New Member

    kaj ko bi še enkrat skopiral tab pa popravil napake ? Bi prosil, bom še jaz poiskusil zašpilat.
     
  7. SeLoTeJp

    SeLoTeJp Senior Member

    -----------------------------------------8-10^-10^ˇ-8--------15^-15-13-12--------
    -------------------5-6-5-----------/10----------------10-8-----------------------------
    --5^--------5-7----------7^5----------------------------------------------------
    -----3----/7--------------------5---------------------------------------------
    ------------------------------------------------------------------------------
    ------------------------------------------------------------------------


    -----13---------------------------------------------------------------
    ------13----------------13-15^-13------------------------------------------------
    -12^-----12^ˇ-10---/14---------------14-12-----------------------------------------------
    ----------------------------------------------/14-12------------------------------
    --------------------------------------------------------------------
    --------------------------------------------------------------------

    Mislm da je tkole nekak:)
     

Share This Page