Nude - Povej mi zakaj (solo)

Discussion in 'Ugotavljamo tablature' started by zeus, Jan 14, 2008.

  1. zeus

    zeus Junior Member

    Nekaj malega imam, naprej pa me enostavno zmanjka. prosim za mal pomoči, hvala
    Code:
    e------------------------------------------------------
    B-12-12h13p12-10--------------10----10---12-12-13---
    G-----------------12-9-12-9-12----12---12------------
    D------------------------------------------------------
    A------------------------------------------------------
    E------------------------------------------------------
    
    
    e--------------------------------
    B-13-12-10-----10---------------
    G-----------12-----12-11-12-11
    D--------------------------------
    A--------------------------------
    E--------------------------------
    
     
  2. Salecan

    Salecan Senior Member

    Dobiš jutr :)
     
  3. Salecan

    Salecan Senior Member

    Code:
    |-7--7-8-7----------------------------------------7-8---8-7----------------------------
    |-8----------/10-8---------------8---8-8-8/10--------------10-8-10-8-7-8-7--------
    |-7--------------------9--9-7-9---9--------------------------------------------9-7-9--
    |-----------------------------------------------------------------------------------------
    |-----------------------------------------------------------------------------------------
    |-----------------------------------------------------------------------------------------
    
    |-----------------------------------------------------------------------
    |-------------------------------------------------------------7-8/10---
    |--9-7---9-7-----7----------7--------7-------7-------7--9-----------
    |------9-----9-----9---9-10---9-10----9-10---9-10-----------------
    |-----------------------------------------------------------------------
    |-----------------------------------------------------------------------
    
    |-----------------10----------------10-------------------------------------8--
    |---8-10-8-10^------10^-8-10^----10^8----------8/10-8---8-10-12----
    |----------------------------------------------9--7-9-------------------------
    |-------------------------------------------------------------------------------
    |------------------------------------------------------------------------------
    |------------------------------------------------------------------------------
    
    
    
     
  4. NUFAN

    NUFAN Forum Administrator Staff Member

    Ti je inštruktor mal pomagal ;)


    P.S. Smeški ga pa serjejo nekaj. Ne zagrabi jih.
     
  5. Salecan

    Salecan Senior Member

    haha... ni :D
    solo sm se že enkrat prej spravu učit... tk da neki sm znau sam spount sm se mogu pa ene dele bol natančno :)

    Drugač pa bi blo fajn še kako drugo mnenje če je točno :D
     
  6. NoMAD

    NoMAD Administrator Staff Member

    Mislim da dolpoteg spet deluje... tko da nalož, ko boš ziher
     
  7. deepdiver

    deepdiver New Member

    Hoj.
    Mene samo zanima a je druga verzij nadaljevanje prve .

    Lp Simon
     
  8. NoMAD

    NoMAD Administrator Staff Member

Share This Page